  0
SECTION
  2
HEADER
  9
$ACADVER
  1
AC1015
  9
$ACADMAINTVER
 70
    20
  9
$DWGCODEPAGE
  3
ANSI_1252
  9
$INSBASE
 10
0.0
 20
0.0
 30
0.0
  9
$EXTMIN
 10
-92.61724571428571
 20
-191.904999
 30
0.0
  9
$EXTMAX
 10
113.9401291513976
 20
45.43557521882712
 30
0.0
  9
$LIMMIN
 10
-94.43636299999999
 20
-191.904999
  9
$LIMMAX
 10
119.404839
 20
42.86936599999999
  9
$ORTHOMODE
 70
     0
  9
$REGENMODE
 70
     1
  9
$FILLMODE
 70
     1
  9
$QTEXTMODE
 70
     0
  9
$MIRRTEXT
 70
     1
  9
$LTSCALE
 40
1.0
  9
$ATTMODE
 70
     2
  9
$TEXTSIZE
 40
0.2
  9
$TRACEWID
 40
0.05
  9
$TEXTSTYLE
  7
STANDARD
  9
$CLAYER
  8
3
  9
$CELTYPE
  6
CONTINUOUS
  9
$CECOLOR
 62
   256
  9
$CELTSCALE
 40
1.0
  9
$DISPSILH
 70
     0
  9
$DIMSCALE
 40
1.0
  9
$DIMASZ
 40
5.0
  9
$DIMEXO
 40
2.0
  9
$DIMDLI
 40
0.38
  9
$DIMRND
 40
0.0
  9
$DIMDLE
 40
0.0
  9
$DIMEXE
 40
2.0
  9
$DIMTP
 40
0.0
  9
$DIMTM
 40
0.0
  9
$DIMTXT
 40
2.5
  9
$DIMCEN
 40
0.09
  9
$DIMTSZ
 40
0.0
  9
$DIMTOL
 70
     0
  9
$DIMLIM
 70
     0
  9
$DIMTIH
 70
     1
  9
$DIMTOH
 70
     1
  9
$DIMSE1
 70
     0
  9
$DIMSE2
 70
     0
  9
$DIMTAD
 70
     0
  9
$DIMZIN
 70
     0
  9
$DIMBLK
  1

  9
$DIMASO
 70
     1
  9
$DIMSHO
 70
     1
  9
$DIMPOST
  1
mm
  9
$DIMAPOST
  1

  9
$DIMALT
 70
     0
  9
$DIMALTD
 70
     2
  9
$DIMALTF
 40
25.4
  9
$DIMLFAC
 40
1.0
  9
$DIMTOFL
 70
     0
  9
$DIMTVP
 40
0.0
  9
$DIMTIX
 70
     0
  9
$DIMSOXD
 70
     0
  9
$DIMSAH
 70
     0
  9
$DIMBLK1
  1

  9
$DIMBLK2
  1

  9
$DIMSTYLE
  2
STANDARD
  9
$DIMCLRD
 70
     7
  9
$DIMCLRE
 70
     7
  9
$DIMCLRT
 70
     7
  9
$DIMTFAC
 40
1.0
  9
$DIMGAP
 40
0.09
  9
$DIMJUST
 70
     0
  9
$DIMSD1
 70
     0
  9
$DIMSD2
 70
     0
  9
$DIMTOLJ
 70
     1
  9
$DIMTZIN
 70
     0
  9
$DIMALTZ
 70
     0
  9
$DIMALTTZ
 70
     0
  9
$DIMUPT
 70
     0
  9
$DIMDEC
 70
     4
  9
$DIMTDEC
 70
     4
  9
$DIMALTU
 70
     2
  9
$DIMALTTD
 70
     2
  9
$DIMTXSTY
  7
STANDARD
  9
$DIMAUNIT
 70
     0
  9
$DIMADEC
 70
     0
  9
$DIMALTRND
 40
0.0
  9
$DIMAZIN
 70
     0
  9
$DIMDSEP
 70
    46
  9
$DIMATFIT
 70
     3
  9
$DIMFRAC
 70
     0
  9
$DIMLDRBLK
  1

  9
$DIMLUNIT
 70
     2
  9
$DIMLWD
 70
    -2
  9
$DIMLWE
 70
    -2
  9
$DIMTMOVE
 70
     0
  9
$LUNITS
 70
     2
  9
$LUPREC
 70
     3
  9
$SKETCHINC
 40
0.1
  9
$FILLETRAD
 40
7.0
  9
$AUNITS
 70
     0
  9
$AUPREC
 70
     3
  9
$MENU
  1
acad
  9
$ELEVATION
 40
0.0
  9
$PELEVATION
 40
0.0
  9
$THICKNESS
 40
0.0
  9
$LIMCHECK
 70
     0
  9
$CHAMFERA
 40
0.5
  9
$CHAMFERB
 40
0.5
  9
$CHAMFERC
 40
0.0
  9
$CHAMFERD
 40
0.0
  9
$SKPOLY
 70
     0
  9
$TDCREATE
 40
2444972.416666667
  9
$TDUCREATE
 40
2444972.000000000
  9
$TDUPDATE
 40
2453647.423824143
  9
$TDUUPDATE
 40
2453647.007157477
  9
$TDINDWG
 40
0.0377055440
  9
$TDUSRTIMER
 40
0.0377055440
  9
$USRTIMER
 70
     1
  9
$ANGBASE
 50
0.0
  9
$ANGDIR
 70
     0
  9
$PDMODE
 70
     2
  9
$PDSIZE
 40
0.0
  9
$PLINEWID
 40
0.0
  9
$SPLFRAME
 70
     0
  9
$SPLINETYPE
 70
     6
  9
$SPLINESEGS
 70
     8
  9
$HANDSEED
  5
201
  9
$SURFTAB1
 70
     6
  9
$SURFTAB2
 70
     6
  9
$SURFTYPE
 70
     6
  9
$SURFU
 70
     6
  9
$SURFV
 70
     6
  9
$UCSBASE
  2

  9
$UCSNAME
  2

  9
$UCSORG
 10
0.0
 20
0.0
 30
0.0
  9
$UCSXDIR
 10
1.0
 20
0.0
 30
0.0
  9
$UCSYDIR
 10
0.0
 20
1.0
 30
0.0
  9
$UCSORTHOREF
  2

  9
$UCSORTHOVIEW
 70
     0
  9
$UCSORGTOP
 10
0.0
 20
0.0
 30
0.0
  9
$UCSORGBOTTOM
 10
0.0
 20
0.0
 30
0.0
  9
$UCSORGLEFT
 10
0.0
 20
0.0
 30
0.0
  9
$UCSORGRIGHT
 10
0.0
 20
0.0
 30
0.0
  9
$UCSORGFRONT
 10
0.0
 20
0.0
 30
0.0
  9
$UCSORGBACK
 10
0.0
 20
0.0
 30
0.0
  9
$PUCSBASE
  2

  9
$PUCSNAME
  2

  9
$PUCSORG
 10
0.0
 20
0.0
 30
0.0
  9
$PUCSXDIR
 10
1.0
 20
0.0
 30
0.0
  9
$PUCSYDIR
 10
0.0
 20
1.0
 30
0.0
  9
$PUCSORTHOREF
  2

  9
$PUCSORTHOVIEW
 70
     0
  9
$PUCSORGTOP
 10
0.0
 20
0.0
 30
0.0
  9
$PUCSORGBOTTOM
 10
0.0
 20
0.0
 30
0.0
  9
$PUCSORGLEFT
 10
0.0
 20
0.0
 30
0.0
  9
$PUCSORGRIGHT
 10
0.0
 20
0.0
 30
0.0
  9
$PUCSORGFRONT
 10
0.0
 20
0.0
 30
0.0
  9
$PUCSORGBACK
 10
0.0
 20
0.0
 30
0.0
  9
$USERI1
 70
     0
  9
$USERI2
 70
     0
  9
$USERI3
 70
     0
  9
$USERI4
 70
     0
  9
$USERI5
 70
     0
  9
$USERR1
 40
0.0
  9
$USERR2
 40
0.0
  9
$USERR3
 40
0.0
  9
$USERR4
 40
0.0
  9
$USERR5
 40
0.0
  9
$WORLDVIEW
 70
     1
  9
$SHADEDGE
 70
     3
  9
$SHADEDIF
 70
    70
  9
$TILEMODE
 70
     1
  9
$MAXACTVP
 70
    16
  9
$PINSBASE
 10
0.0
 20
0.0
 30
0.0
  9
$PLIMCHECK
 70
     0
  9
$PEXTMIN
 10
1.129416694791299
 20
0.7730833076116604
 30
0.0
  9
$PEXTMAX
 10
10.16475025312168
 20
6.957749768504946
 30
0.0
  9
$PLIMMIN
 10
-0.1979161059762549
 20
-0.2679166643638311
  9
$PLIMMAX
 10
11.49375014417753
 20
7.99874977802667
  9
$UNITMODE
 70
     0
  9
$VISRETAIN
 70
     0
  9
$PLINEGEN
 70
     0
  9
$PSLTSCALE
 70
     1
  9
$TREEDEPTH
 70
  3020
  9
$CMLSTYLE
  2
STANDARD
  9
$CMLJUST
 70
     0
  9
$CMLSCALE
 40
1.0
  9
$PROXYGRAPHICS
 70
     1
  9
$MEASUREMENT
 70
     0
  9
$CELWEIGHT
370
    -1
  9
$ENDCAPS
280
     0
  9
$JOINSTYLE
280
     0
  9
$LWDISPLAY
290
     0
  9
$INSUNITS
 70
     0
  9
$HYPERLINKBASE
  1

  9
$STYLESHEET
  1

  9
$XEDIT
290
     1
  9
$CEPSNTYPE
380
     0
  9
$PSTYLEMODE
290
     1
  9
$FINGERPRINTGUID
  2
{72736A11-C8C6-4481-A9E0-A98B8287FC41}
  9
$VERSIONGUID
  2
{AA7065EB-D12F-43F4-9F34-1418231F7A63}
  9
$EXTNAMES
290
     1
  9
$PSVPSCALE
 40
0.0
  9
$OLESTARTUP
290
     0
  0
ENDSEC
  0
SECTION
  2
CLASSES
  0
CLASS
  1
ACDBDICTIONARYWDFLT
  2
AcDbDictionaryWithDefault
  3
ObjectDBX Classes
 90
        0
280
     0
281
     0
  0
CLASS
  1
ACDBPLACEHOLDER
  2
AcDbPlaceHolder
  3
ObjectDBX Classes
 90
        0
280
     0
281
     0
  0
CLASS
  1
LAYOUT
  2
AcDbLayout
  3
ObjectDBX Classes
 90
        0
280
     0
281
     0
  0
CLASS
  1
DICTIONARYVAR
  2
AcDbDictionaryVar
  3
ObjectDBX Classes
 90
        0
280
     0
281
     0
  0
CLASS
  1
TABLESTYLE
  2
AcDbTableStyle
  3
ObjectDBX Classes
 90
     2047
280
     0
281
     0
  0
ENDSEC
  0
SECTION
  2
TABLES
  0
TABLE
  2
VPORT
  5
8
330
0
100
AcDbSymbolTable
 70
     4
  0
VPORT
  5
1F7
330
8
100
AcDbSymbolTableRecord
100
AcDbViewportTableRecord
  2
*Active
 70
     0
 10
0.0
 20
0.0
 11
1.0
 21
1.0
 12
25.15726940397164
 22
-75.62104105495928
 13
0.0
 23
0.0
 14
1.0
 24
1.0
 15
0.0
 25
0.0
 16
0.0
 26
0.0
 36
1.0
 17
0.0
 27
0.0
 37
0.0
 40
243.6124859095617
 41
1.71047619047619
 42
50.0
 43
0.0
 44
0.0
 50
0.0
 51
0.0
 71
     0
 72
   100
 73
     1
 74
     1
 75
     0
 76
     0
 77
     0
 78
     0
281
     0
 65
     1
110
0.0
120
0.0
130
0.0
111
1.0
121
0.0
131
0.0
112
0.0
122
1.0
132
0.0
 79
     0
146
0.0
  0
ENDTAB
  0
TABLE
  2
LTYPE
  5
5
330
0
100
AcDbSymbolTable
 70
     5
  0
LTYPE
  5
13
330
5
100
AcDbSymbolTableRecord
100
AcDbLinetypeTableRecord
  2
BYBLOCK
 70
     0
  3

 72
    65
 73
     0
 40
0.0
  0
LTYPE
  5
14
330
5
100
AcDbSymbolTableRecord
100
AcDbLinetypeTableRecord
  2
BYLAYER
 70
     0
  3

 72
    65
 73
     0
 40
0.0
  0
LTYPE
  5
15
330
5
100
AcDbSymbolTableRecord
100
AcDbLinetypeTableRecord
  2
CONTINUOUS
 70
     0
  3
SOLID LINE
 72
    65
 73
     0
 40
0.0
  0
LTYPE
  5
1F
330
5
100
AcDbSymbolTableRecord
100
AcDbLinetypeTableRecord
  2
PHANTOM
 70
     0
  3
_____ _ _ _____ _ _ _____ _ _ _____ _ _ ____
 72
    65
 73
     6
 40
2.5
 49
1.25
 74
     0
 49
-0.25
 74
     0
 49
0.25
 74
     0
 49
-0.25
 74
     0
 49
0.25
 74
     0
 49
-0.25
 74
     0
  0
LTYPE
  5
20
330
5
100
AcDbSymbolTableRecord
100
AcDbLinetypeTableRecord
  2
BORDER
 70
     0
  3
__ __ . __ __ . __ __ . __ __ . __ __ . __ __
 72
    65
 73
     6
 40
1.75
 49
0.5
 74
     0
 49
-0.25
 74
     0
 49
0.5
 74
     0
 49
-0.25
 74
     0
 49
0.0
 74
     0
 49
-0.25
 74
     0
  0
LTYPE
  5
21
330
5
100
AcDbSymbolTableRecord
100
AcDbLinetypeTableRecord
  2
DASHDOT
 70
     0
  3
__ . __ . __ . __ . __ . __ . __ . __ . __ . __
 72
    65
 73
     4
 40
1.0
 49
0.5
 74
     0
 49
-0.25
 74
     0
 49
0.0
 74
     0
 49
-0.25
 74
     0
  0
LTYPE
  5
22
330
5
100
AcDbSymbolTableRecord
100
AcDbLinetypeTableRecord
  2
DIVIDE
 70
     0
  3
__ . . __ . . __ . . __ . . __ . . __ . . __
 72
    65
 73
     6
 40
1.25
 49
0.5
 74
     0
 49
-0.25
 74
     0
 49
0.0
 74
     0
 49
-0.25
 74
     0
 49
0.0
 74
     0
 49
-0.25
 74
     0
  0
ENDTAB
  0
TABLE
  2
LAYER
  5
2
330
0
100
AcDbSymbolTable
 70
    10
  0
LAYER
  5
F
330
2
100
AcDbSymbolTableRecord
100
AcDbLayerTableRecord
  2
0
 70
     0
 62
     7
  6
CONTINUOUS
370
    -3
390
12C
  0
LAYER
  5
1E
330
2
100
AcDbSymbolTableRecord
100
AcDbLayerTableRecord
  2
3
 70
     0
 62
     4
  6
DASHDOT
370
    -3
390
12C
  0
LAYER
  5
23
330
2
100
AcDbSymbolTableRecord
100
AcDbLayerTableRecord
  2
1
 70
     0
 62
     4
  6
CONTINUOUS
370
    -3
390
12C
  0
LAYER
  5
24
330
2
100
AcDbSymbolTableRecord
100
AcDbLayerTableRecord
  2
2
 70
     0
 62
     1
  6
DASHDOT
370
    -3
390
12C
  0
LAYER
  5
25
330
2
100
AcDbSymbolTableRecord
100
AcDbLayerTableRecord
  2
4
 70
     0
 62
     1
  6
DASHDOT
370
    -3
390
12C
  0
LAYER
  5
26
330
2
100
AcDbSymbolTableRecord
100
AcDbLayerTableRecord
  2
5
 70
     0
 62
     4
  6
CONTINUOUS
370
    -3
390
12C
  0
LAYER
  5
27
330
2
100
AcDbSymbolTableRecord
100
AcDbLayerTableRecord
  2
6
 70
     0
 62
     4
  6
DIVIDE
370
    -3
390
12C
  0
LAYER
  5
28
330
2
100
AcDbSymbolTableRecord
100
AcDbLayerTableRecord
  2
7
 70
     0
 62
     4
  6
DIVIDE
370
    -3
390
12C
  0
LAYER
  5
29
330
2
100
AcDbSymbolTableRecord
100
AcDbLayerTableRecord
  2
DEFPOINTS
 70
     0
 62
    -7
  6
CONTINUOUS
290
     0
370
    -3
390
12C
  0
LAYER
  5
DD
330
2
100
AcDbSymbolTableRecord
100
AcDbLayerTableRecord
  2
8
 70
     0
 62
     7
  6
CONTINUOUS
370
    -3
390
12C
  0
ENDTAB
  0
TABLE
  2
STYLE
  5
3
330
0
100
AcDbSymbolTable
 70
     2
  0
STYLE
  5
10
330
3
100
AcDbSymbolTableRecord
100
AcDbTextStyleTableRecord
  2
STANDARD
 70
     0
 40
0.0
 41
1.0
 50
0.0
 71
     0
 42
0.2
  3
txt
  4

  0
STYLE
  5
2A
330
3
100
AcDbSymbolTableRecord
100
AcDbTextStyleTableRecord
  2
ENGINEER
 70
     0
 40
0.0
 41
1.0
 50
0.0
 71
     0
 42
1.0
  3
ROMANS
  4

  0
ENDTAB
  0
TABLE
  2
VIEW
  5
6
330
0
100
AcDbSymbolTable
 70
     0
  0
ENDTAB
  0
TABLE
  2
UCS
  5
7
330
0
100
AcDbSymbolTable
 70
     0
  0
ENDTAB
  0
TABLE
  2
APPID
  5
9
330
0
100
AcDbSymbolTable
 70
     1
  0
APPID
  5
11
330
9
100
AcDbSymbolTableRecord
100
AcDbRegAppTableRecord
  2
ACAD
 70
     0
  0
ENDTAB
  0
TABLE
  2
DIMSTYLE
  5
A
330
0
100
AcDbSymbolTable
 70
     1
100
AcDbDimStyleTable
 71
     1
340
128
  0
DIMSTYLE
105
128
102
{ACAD_REACTORS
330
1CE
102
}
330
A
100
AcDbSymbolTableRecord
100
AcDbDimStyleTableRecord
  2
STANDARD
 70
     0
340
10
  0
ENDTAB
  0
TABLE
  2
BLOCK_RECORD
  5
1
330
0
100
AcDbSymbolTable
 70
     4
  0
BLOCK_RECORD
  5
19
330
1
100
AcDbSymbolTableRecord
100
AcDbBlockTableRecord
  2
*MODEL_SPACE
340
12F
  0
BLOCK_RECORD
  5
16
330
1
100
AcDbSymbolTableRecord
100
AcDbBlockTableRecord
  2
*PAPER_SPACE
340
130
  0
BLOCK_RECORD
  5
50
330
1
100
AcDbSymbolTableRecord
100
AcDbBlockTableRecord
  2
HCH5
340
0
  0
BLOCK_RECORD
  5
68
330
1
100
AcDbSymbolTableRecord
100
AcDbBlockTableRecord
  2
HCH16
340
0
  0
BLOCK_RECORD
  5
79
330
1
100
AcDbSymbolTableRecord
100
AcDbBlockTableRecord
  2
HCH12
340
0
  0
BLOCK_RECORD
  5
91
330
1
100
AcDbSymbolTableRecord
100
AcDbBlockTableRecord
  2
HCH17
340
0
  0
ENDTAB
  0
ENDSEC
  0
SECTION
  2
BLOCKS
  0
BLOCK
  5
1A
330
19
100
AcDbEntity
  8
0
100
AcDbBlockBegin
  2
*MODEL_SPACE
 70
     0
 10
0.0
 20
0.0
 30
0.0
  3
*MODEL_SPACE
  1

  0
ENDBLK
  5
1B
330
19
100
AcDbEntity
  8
0
100
AcDbBlockEnd
  0
BLOCK
  5
17
330
16
100
AcDbEntity
 67
     1
  8
0
100
AcDbBlockBegin
  2
*PAPER_SPACE
 70
     0
 10
0.0
 20
0.0
 30
0.0
  3
*PAPER_SPACE
  1

  0
ENDBLK
  5
18
330
16
100
AcDbEntity
 67
     1
  8
0
100
AcDbBlockEnd
  0
BLOCK
  5
51
330
50
100
AcDbEntity
  8
0
100
AcDbBlockBegin
  2
HCH5
 70
     0
 10
0.0
 20
0.0
 30
0.0
  3
HCH5
  1

  0
LINE
  5
52
330
50
100
AcDbEntity
  8
1
  6
Continuous
 62
     4
100
AcDbLine
 10
0.0
 20
0.0
 30
0.0
 11
40.0
 21
0.0
 31
0.0
  0
LINE
  5
53
330
50
100
AcDbEntity
  8
1
  6
Continuous
 62
     4
100
AcDbLine
 10
40.0
 20
0.0
 30
0.0
 11
40.0
 21
10.0
 31
0.0
  0
LINE
  5
54
330
50
100
AcDbEntity
  8
1
  6
Continuous
 62
     4
100
AcDbLine
 10
40.0
 20
10.0
 30
0.0
 11
0.0
 21
10.0
 31
0.0
  0
LINE
  5
55
330
50
100
AcDbEntity
  8
1
  6
Continuous
 62
     4
100
AcDbLine
 10
0.0
 20
10.0
 30
0.0
 11
0.0
 21
0.0
 31
0.0
  0
LINE
  5
56
330
50
100
AcDbEntity
  8
1
  6
Continuous
 62
     4
100
AcDbLine
 10
0.0
 20
5.656854
 30
0.0
 11
5.656854
 21
0.0
 31
0.0
  0
LINE
  5
57
330
50
100
AcDbEntity
  8
1
  6
Continuous
 62
     4
100
AcDbLine
 10
1.313708
 20
10.0
 30
0.0
 11
11.313708
 21
0.0
 31
0.0
  0
LINE
  5
58
330
50
100
AcDbEntity
  8
1
  6
Continuous
 62
     4
100
AcDbLine
 10
6.970563999999999
 20
9.999999
 30
0.0
 11
16.970562
 21
0.0
 31
0.0
  0
LINE
  5
59
330
50
100
AcDbEntity
  8
1
  6
Continuous
 62
     4
100
AcDbLine
 10
12.627419
 20
10.0
 30
0.0
 11
22.627417
 21
0.0
 31
0.0
  0
LINE
  5
5A
330
50
100
AcDbEntity
  8
1
  6
Continuous
 62
     4
100
AcDbLine
 10
18.284273
 20
9.999997999999999
 30
0.0
 11
28.284271
 21
0.000001
 31
0.0
  0
LINE
  5
5B
330
50
100
AcDbEntity
  8
1
  6
Continuous
 62
     4
100
AcDbLine
 10
23.941128
 20
9.999999
 30
0.0
 11
33.941124
 21
0.000001
 31
0.0
  0
LINE
  5
5C
330
50
100
AcDbEntity
  8
1
  6
Continuous
 62
     4
100
AcDbLine
 10
29.59798
 20
10.0
 30
0.0
 11
39.59798
 21
0.000001
 31
0.0
  0
LINE
  5
5D
330
50
100
AcDbEntity
  8
1
  6
Continuous
 62
     4
100
AcDbLine
 10
35.25483300000001
 20
9.999999
 30
0.0
 11
40.000004
 21
5.254833999999999
 31
0.0
  0
LINE
  5
5E
330
50
100
AcDbEntity
  8
1
  6
Continuous
 62
     4
100
AcDbLine
 10
0.0
 20
1.885618
 30
0.0
 11
1.885618
 21
0.0
 31
0.0
  0
LINE
  5
5F
330
50
100
AcDbEntity
  8
1
  6
Continuous
 62
     4
100
AcDbLine
 10
0.0
 20
7.542472999999999
 30
0.0
 11
7.542472999999999
 21
0.0
 31
0.0
  0
LINE
  5
60
330
50
100
AcDbEntity
  8
1
  6
Continuous
 62
     4
100
AcDbLine
 10
3.199325999999999
 20
10.000001
 30
0.0
 11
13.199327
 21
0.0
 31
0.0
  0
LINE
  5
61
330
50
100
AcDbEntity
  8
1
  6
Continuous
 62
     4
100
AcDbLine
 10
8.856182999999999
 20
9.999999
 30
0.0
 11
18.856182
 21
0.0
 31
0.0
  0
LINE
  5
62
330
50
100
AcDbEntity
  8
1
  6
Continuous
 62
     4
100
AcDbLine
 10
14.513036
 20
9.999999
 30
0.0
 11
24.513035
 21
0.000001
 31
0.0
  0
LINE
  5
63
330
50
100
AcDbEntity
  8
1
  6
Continuous
 62
     4
100
AcDbLine
 10
20.169893
 20
9.999997999999999
 30
0.0
 11
30.169891
 21
0.000001
 31
0.0
  0
LINE
  5
64
330
50
100
AcDbEntity
  8
1
  6
Continuous
 62
     4
100
AcDbLine
 10
25.826746
 20
10.000001
 30
0.0
 11
35.826744
 21
0.000001
 31
0.0
  0
LINE
  5
65
330
50
100
AcDbEntity
  8
1
  6
Continuous
 62
     4
100
AcDbLine
 10
31.483599
 20
9.999997999999999
 30
0.0
 11
40.0
 21
1.483598999999999
 31
0.0
  0
LINE
  5
66
330
50
100
AcDbEntity
  8
1
  6
Continuous
 62
     4
100
AcDbLine
 10
37.140453
 20
9.999999
 30
0.0
 11
40.0
 21
7.140447999999999
 31
0.0
  0
ENDBLK
  5
67
330
50
100
AcDbEntity
  8
0
100
AcDbBlockEnd
  0
BLOCK
  5
69
330
68
100
AcDbEntity
  8
0
100
AcDbBlockBegin
  2
HCH16
 70
     0
 10
0.0
 20
0.0
 30
0.0
  3
HCH16
  1

  0
LINE
  5
6A
330
68
100
AcDbEntity
  8
3
  6
DASHDOT
 62
     4
100
AcDbLine
 10
0.0
 20
0.0
 30
0.0
 11
120.0
 21
0.0
 31
0.0
  0
LINE
  5
6B
330
68
100
AcDbEntity
  8
3
  6
DASHDOT
 62
     4
100
AcDbLine
 10
120.0
 20
0.0
 30
0.0
 11
120.0
 21
25.0
 31
0.0
  0
LINE
  5
6C
330
68
100
AcDbEntity
  8
3
  6
DASHDOT
 62
     4
100
AcDbLine
 10
120.0
 20
25.0
 30
0.0
 11
0.0
 21
25.0
 31
0.0
  0
LINE
  5
6D
330
68
100
AcDbEntity
  8
3
  6
DASHDOT
 62
     4
100
AcDbLine
 10
0.0
 20
25.0
 30
0.0
 11
0.0
 21
0.0
 31
0.0
  0
LINE
  5
6E
330
68
100
AcDbEntity
  8
3
  6
Continuous
 62
     4
100
AcDbLine
 10
113.137077
 20
-0.000034
 30
0.0
 11
120.0
 21
6.862899999999999
 31
0.0
  0
LINE
  5
6F
330
68
100
AcDbEntity
  8
3
  6
Continuous
 62
     4
100
AcDbLine
 10
98.99494200000001
 20
-0.00003
 30
0.0
 11
120.000008
 21
21.005066
 31
0.0
  0
LINE
  5
70
330
68
100
AcDbEntity
  8
3
  6
Continuous
 62
     4
100
AcDbLine
 10
84.85281399999999
 20
-0.000026
 30
0.0
 11
109.852814
 21
24.999989
 31
0.0
  0
LINE
  5
71
330
68
100
AcDbEntity
  8
3
  6
Continuous
 62
     4
100
AcDbLine
 10
70.710678
 20
-0.000021
 30
0.0
 11
95.710686
 21
24.999989
 31
0.0
  0
LINE
  5
72
330
68
100
AcDbEntity
  8
3
  6
Continuous
 62
     4
100
AcDbLine
 10
56.568539
 20
-0.000017
 30
0.0
 11
81.56855
 21
24.999981
 31
0.0
  0
LINE
  5
73
330
68
100
AcDbEntity
  8
3
  6
Continuous
 62
     4
100
AcDbLine
 10
42.42640699999999
 20
-0.000013
 30
0.0
 11
67.42641400000001
 21
24.999979
 31
0.0
  0
LINE
  5
74
330
68
100
AcDbEntity
  8
3
  6
Continuous
 62
     4
100
AcDbLine
 10
28.284269
 20
-0.000009
 30
0.0
 11
53.284275
 21
25.000002
 31
0.0
  0
LINE
  5
75
330
68
100
AcDbEntity
  8
3
  6
Continuous
 62
     4
100
AcDbLine
 10
14.142135
 20
-0.000004
 30
0.0
 11
39.142147
 21
24.999992
 31
0.0
  0
LINE
  5
76
330
68
100
AcDbEntity
  8
3
  6
Continuous
 62
     4
100
AcDbLine
 10
0.0
 20
0.0
 30
0.0
 11
25.000002
 21
25.000004
 31
0.0
  0
LINE
  5
77
330
68
100
AcDbEntity
  8
3
  6
Continuous
 62
     4
100
AcDbLine
 10
-0.000001
 20
14.142135
 30
0.0
 11
10.857868
 21
25.000002
 31
0.0
  0
ENDBLK
  5
78
330
68
100
AcDbEntity
  8
0
100
AcDbBlockEnd
  0
BLOCK
  5
7A
330
79
100
AcDbEntity
  8
0
100
AcDbBlockBegin
  2
HCH12
 70
     0
 10
0.0
 20
0.0
 30
0.0
  3
HCH12
  1

  0
LINE
  5
7B
330
79
100
AcDbEntity
  8
1
  6
Continuous
 62
     4
100
AcDbLine
 10
0.0
 20
0.0
 30
0.0
 11
40.0
 21
0.0
 31
0.0
  0
LINE
  5
7C
330
79
100
AcDbEntity
  8
1
  6
Continuous
 62
     4
100
AcDbLine
 10
40.0
 20
0.0
 30
0.0
 11
40.0
 21
10.0
 31
0.0
  0
LINE
  5
7D
330
79
100
AcDbEntity
  8
1
  6
Continuous
 62
     4
100
AcDbLine
 10
40.0
 20
10.0
 30
0.0
 11
0.0
 21
10.0
 31
0.0
  0
LINE
  5
7E
330
79
100
AcDbEntity
  8
1
  6
Continuous
 62
     4
100
AcDbLine
 10
0.0
 20
10.0
 30
0.0
 11
0.0
 21
0.0
 31
0.0
  0
LINE
  5
7F
330
79
100
AcDbEntity
  8
1
  6
Continuous
 62
     4
100
AcDbLine
 10
0.0
 20
5.656854
 30
0.0
 11
5.656854
 21
0.0
 31
0.0
  0
LINE
  5
80
330
79
100
AcDbEntity
  8
1
  6
Continuous
 62
     4
100
AcDbLine
 10
1.313708
 20
10.0
 30
0.0
 11
11.313708
 21
0.0
 31
0.0
  0
LINE
  5
81
330
79
100
AcDbEntity
  8
1
  6
Continuous
 62
     4
100
AcDbLine
 10
6.970563999999999
 20
9.999999
 30
0.0
 11
16.970562
 21
0.0
 31
0.0
  0
LINE
  5
82
330
79
100
AcDbEntity
  8
1
  6
Continuous
 62
     4
100
AcDbLine
 10
12.627419
 20
10.0
 30
0.0
 11
22.627417
 21
0.0
 31
0.0
  0
LINE
  5
83
330
79
100
AcDbEntity
  8
1
  6
Continuous
 62
     4
100
AcDbLine
 10
18.284273
 20
9.999997999999999
 30
0.0
 11
28.284271
 21
0.000001
 31
0.0
  0
LINE
  5
84
330
79
100
AcDbEntity
  8
1
  6
Continuous
 62
     4
100
AcDbLine
 10
23.941128
 20
9.999999
 30
0.0
 11
33.941124
 21
0.000001
 31
0.0
  0
LINE
  5
85
330
79
100
AcDbEntity
  8
1
  6
Continuous
 62
     4
100
AcDbLine
 10
29.59798
 20
10.0
 30
0.0
 11
39.59798
 21
0.000001
 31
0.0
  0
LINE
  5
86
330
79
100
AcDbEntity
  8
1
  6
Continuous
 62
     4
100
AcDbLine
 10
35.25483300000001
 20
9.999999
 30
0.0
 11
40.000004
 21
5.254833999999999
 31
0.0
  0
LINE
  5
87
330
79
100
AcDbEntity
  8
1
  6
Continuous
 62
     4
100
AcDbLine
 10
0.0
 20
1.885618
 30
0.0
 11
1.885618
 21
0.0
 31
0.0
  0
LINE
  5
88
330
79
100
AcDbEntity
  8
1
  6
Continuous
 62
     4
100
AcDbLine
 10
0.0
 20
7.542472999999999
 30
0.0
 11
7.542472999999999
 21
0.0
 31
0.0
  0
LINE
  5
89
330
79
100
AcDbEntity
  8
1
  6
Continuous
 62
     4
100
AcDbLine
 10
3.199325999999999
 20
10.000001
 30
0.0
 11
13.199327
 21
0.0
 31
0.0
  0
LINE
  5
8A
330
79
100
AcDbEntity
  8
1
  6
Continuous
 62
     4
100
AcDbLine
 10
8.856182999999999
 20
9.999999
 30
0.0
 11
18.856182
 21
0.0
 31
0.0
  0
LINE
  5
8B
330
79
100
AcDbEntity
  8
1
  6
Continuous
 62
     4
100
AcDbLine
 10
14.513036
 20
9.999999
 30
0.0
 11
24.513035
 21
0.000001
 31
0.0
  0
LINE
  5
8C
330
79
100
AcDbEntity
  8
1
  6
Continuous
 62
     4
100
AcDbLine
 10
20.169893
 20
9.999997999999999
 30
0.0
 11
30.169891
 21
0.000001
 31
0.0
  0
LINE
  5
8D
330
79
100
AcDbEntity
  8
1
  6
Continuous
 62
     4
100
AcDbLine
 10
25.826746
 20
10.000001
 30
0.0
 11
35.826744
 21
0.000001
 31
0.0
  0
LINE
  5
8E
330
79
100
AcDbEntity
  8
1
  6
Continuous
 62
     4
100
AcDbLine
 10
31.483599
 20
9.999997999999999
 30
0.0
 11
40.0
 21
1.483598999999999
 31
0.0
  0
LINE
  5
8F
330
79
100
AcDbEntity
  8
1
  6
Continuous
 62
     4
100
AcDbLine
 10
37.140453
 20
9.999999
 30
0.0
 11
40.0
 21
7.140447999999999
 31
0.0
  0
ENDBLK
  5
90
330
79
100
AcDbEntity
  8
0
100
AcDbBlockEnd
  0
BLOCK
  5
92
330
91
100
AcDbEntity
  8
0
100
AcDbBlockBegin
  2
HCH17
 70
     0
 10
0.0
 20
0.0
 30
0.0
  3
HCH17
  1

  0
LINE
  5
93
330
91
100
AcDbEntity
  8
3
  6
DASHDOT
 62
     4
100
AcDbLine
 10
0.0
 20
0.0
 30
0.0
 11
129.545959
 21
0.0
 31
0.0
  0
LINE
  5
94
330
91
100
AcDbEntity
  8
3
  6
DASHDOT
 62
     4
100
AcDbLine
 10
129.545959
 20
0.0
 30
0.0
 11
129.545959
 21
25.0
 31
0.0
  0
LINE
  5
95
330
91
100
AcDbEntity
  8
3
  6
DASHDOT
 62
     4
100
AcDbLine
 10
129.545959
 20
25.0
 30
0.0
 11
0.0
 21
25.0
 31
0.0
  0
LINE
  5
96
330
91
100
AcDbEntity
  8
3
  6
DASHDOT
 62
     4
100
AcDbLine
 10
0.0
 20
25.0
 30
0.0
 11
0.0
 21
0.0
 31
0.0
  0
LINE
  5
97
330
91
100
AcDbEntity
  8
3
  6
Continuous
 62
     4
100
AcDbLine
 10
127.279213
 20
-0.000038
 30
0.0
 11
129.545944
 21
2.266741999999999
 31
0.0
  0
LINE
  5
98
330
91
100
AcDbEntity
  8
3
  6
Continuous
 62
     4
100
AcDbLine
 10
113.137077
 20
-0.000034
 30
0.0
 11
129.545959
 21
16.408859
 31
0.0
  0
LINE
  5
99
330
91
100
AcDbEntity
  8
3
  6
Continuous
 62
     4
100
AcDbLine
 10
98.99494200000001
 20
-0.00003
 30
0.0
 11
123.994949
 21
24.999994
 31
0.0
  0
LINE
  5
9A
330
91
100
AcDbEntity
  8
3
  6
Continuous
 62
     4
100
AcDbLine
 10
84.85281399999999
 20
-0.000026
 30
0.0
 11
109.852814
 21
24.999989
 31
0.0
  0
LINE
  5
9B
330
91
100
AcDbEntity
  8
3
  6
Continuous
 62
     4
100
AcDbLine
 10
70.710678
 20
-0.000021
 30
0.0
 11
95.710686
 21
24.999989
 31
0.0
  0
LINE
  5
9C
330
91
100
AcDbEntity
  8
3
  6
Continuous
 62
     4
100
AcDbLine
 10
56.568539
 20
-0.000017
 30
0.0
 11
81.56855
 21
24.999981
 31
0.0
  0
LINE
  5
9D
330
91
100
AcDbEntity
  8
3
  6
Continuous
 62
     4
100
AcDbLine
 10
42.42640699999999
 20
-0.000013
 30
0.0
 11
67.42641400000001
 21
24.999979
 31
0.0
  0
LINE
  5
9E
330
91
100
AcDbEntity
  8
3
  6
Continuous
 62
     4
100
AcDbLine
 10
28.284269
 20
-0.000009
 30
0.0
 11
53.28427099999999
 21
25.0
 31
0.0
  0
LINE
  5
9F
330
91
100
AcDbEntity
  8
3
  6
Continuous
 62
     4
100
AcDbLine
 10
14.142135
 20
-0.000004
 30
0.0
 11
39.142143
 21
24.999989
 31
0.0
  0
LINE
  5
A0
330
91
100
AcDbEntity
  8
3
  6
Continuous
 62
     4
100
AcDbLine
 10
0.0
 20
0.0
 30
0.0
 11
25.0
 21
25.0
 31
0.0
  0
LINE
  5
A1
330
91
100
AcDbEntity
  8
3
  6
Continuous
 62
     4
100
AcDbLine
 10
-0.000001
 20
14.142135
 30
0.0
 11
10.857864
 21
25.000002
 31
0.0
  0
ENDBLK
  5
A2
330
91
100
AcDbEntity
  8
0
100
AcDbBlockEnd
  0
ENDSEC
  0
SECTION
  2
ENTITIES
  0
LINE
  5
A3
330
19
100
AcDbEntity
  8
0
  6
Continuous
 62
     7
100
AcDbLine
 10
-32.433464
 20
40.541016
 30
0.0
 11
63.566544
 21
40.541016
 31
0.0
  0
ARC
  5
A4
330
19
100
AcDbEntity
  8
0
  6
Continuous
 62
     7
100
AcDbCircle
 10
63.566532
 20
32.541004
 30
0.0
 40
8.000011
100
AcDbArc
 50
0.000082
 51
89.999924
  0
LINE
  5
A5
330
19
100
AcDbEntity
  8
0
  6
Continuous
 62
     7
100
AcDbLine
 10
-32.433464
 20
36.541016
 30
0.0
 11
63.566544
 21
36.541016
 31
0.0
  0
ARC
  5
A6
330
19
100
AcDbEntity
  8
0
  6
Continuous
 62
     7
100
AcDbCircle
 10
63.56655100000001
 20
32.541023
 30
0.0
 40
3.999991999999999
100
AcDbArc
 50
359.999878
 51
90.000107
  0
LINE
  5
A7
330
19
100
AcDbEntity
  8
0
  6
Continuous
 62
     7
100
AcDbLine
 10
71.56654399999999
 20
32.541016
 30
0.0
 11
71.56654399999999
 21
-1.458980999999999
 31
0.0
  0
ARC
  5
A8
330
19
100
AcDbEntity
  8
0
  6
Continuous
 62
     7
100
AcDbCircle
 10
63.566532
 20
-1.458966
 30
0.0
 40
8.000011
100
AcDbArc
 50
270.000061
 51
359.999908
  0
LINE
  5
A9
330
19
100
AcDbEntity
  8
0
  6
Continuous
 62
     7
100
AcDbLine
 10
67.56654399999999
 20
32.541016
 30
0.0
 11
67.56654399999999
 21
-1.458980999999999
 31
0.0
  0
ARC
  5
AA
330
19
100
AcDbEntity
  8
0
  6
Continuous
 62
     7
100
AcDbCircle
 10
63.56654699999999
 20
-1.458985
 30
0.0
 40
3.999995999999999
100
AcDbArc
 50
269.999939
 51
0.000061
  0
LINE
  5
AB
330
19
100
AcDbEntity
  8
0
  6
Continuous
 62
     7
100
AcDbLine
 10
63.566544
 20
-9.458980999999999
 30
0.0
 11
-32.433464
 21
-9.458980999999999
 31
0.0
  0
LINE
  5
AC
330
19
100
AcDbEntity
  8
0
  6
Continuous
 62
     7
100
AcDbLine
 10
63.566544
 20
-5.458980999999999
 30
0.0
 11
-25.43346525859911
 21
-5.45898099999772
 31
0.0
  0
LINE
  5
AD
330
19
100
AcDbEntity
  8
0
  6
Continuous
 62
     7
100
AcDbLine
 10
-32.433464
 20
40.541016
 30
0.0
 11
-32.433464
 21
36.541016
 31
0.0
  0
LINE
  5
B3
330
19
100
AcDbEntity
  8
2
  6
DASHDOT
 62
     7
100
AcDbLine
 10
-4.433463999999999
 20
4.188766
 30
0.0
 11
-4.433463999999999
 21
16.626034
 31
0.0
  0
LINE
  5
B4
330
19
100
AcDbEntity
  8
2
  6
DASHDOT
 62
     7
100
AcDbLine
 10
15.566536
 20
4.188766
 30
0.0
 11
15.566536
 21
16.626034
 31
0.0
  0
LINE
  5
B5
330
19
100
AcDbEntity
  8
2
  6
PHANTOM
 62
     7
100
AcDbLine
 10
-14.433464
 20
15.541019
 30
0.0
 11
25.566536
 21
15.541019
 31
0.0
  0
LINE
  5
B6
330
19
100
AcDbEntity
  8
2
  6
PHANTOM
 62
     7
100
AcDbLine
 10
58.566544
 20
16.541019
 30
0.0
 11
34.56654
 21
16.541019
 31
0.0
  0
ARC
  5
B7
330
19
100
AcDbEntity
  8
2
  6
Continuous
 62
     7
100
AcDbCircle
 10
51.566547
 20
5.541021999999999
 30
0.0
 40
2.999997
100
AcDbArc
 50
359.9999390000001
 51
90.00007600000001
  0
ARC
  5
B8
330
19
100
AcDbEntity
  8
2
  6
Continuous
 62
     7
100
AcDbCircle
 10
23.566538
 20
6.541021999999999
 30
0.0
 40
1.999997999999999
100
AcDbArc
 50
359.9999390000001
 51
90.00005300000001
  0
LINE
  5
B9
330
19
100
AcDbEntity
  8
2
  6
Continuous
 62
     7
100
AcDbLine
 10
51.566544
 20
8.541019
 30
0.0
 11
36.56654
 21
8.541019
 31
0.0
  0
ARC
  5
BA
330
19
100
AcDbEntity
  8
2
  6
Continuous
 62
     7
100
AcDbCircle
 10
36.566536
 20
6.541020999999999
 30
0.0
 40
1.999997999999999
100
AcDbArc
 50
89.99989300000001
 51
180.000061
  0
LINE
  5
BB
330
19
100
AcDbEntity
  8
2
  6
Continuous
 62
     7
100
AcDbLine
 10
58.566544
 20
16.541019
 30
0.0
 11
60.56654399999999
 21
16.541019
 31
0.0
  0
ARC
  5
BC
330
19
100
AcDbEntity
  8
2
  6
Continuous
 62
     7
100
AcDbCircle
 10
60.566547
 20
13.541021
 30
0.0
 40
2.999998
100
AcDbArc
 50
359.999969
 51
90.00007600000001
  0
LINE
  5
BD
330
19
100
AcDbEntity
  8
2
  6
Continuous
 62
     7
100
AcDbLine
 10
23.566536
 20
8.541019
 30
0.0
 11
-11.433464
 21
8.541019
 31
0.0
  0
ARC
  5
BE
330
19
100
AcDbEntity
  8
2
  6
Continuous
 62
     7
100
AcDbCircle
 10
-11.433466
 20
11.541018
 30
0.0
 40
2.999998
100
AcDbArc
 50
179.999969
 51
270.000031
  0
ARC
  5
BF
330
19
100
AcDbEntity
  8
2
  6
Continuous
 62
     7
100
AcDbCircle
 10
36.566536
 20
25.541016
 30
0.0
 40
1.999995999999999
100
AcDbArc
 50
179.999893
 51
270.000122
  0
ARC
  5
C0
330
19
100
AcDbEntity
  8
2
  6
Continuous
 62
     7
100
AcDbCircle
 10
23.566538
 20
26.541016
 30
0.0
 40
1.999997999999999
100
AcDbArc
 50
269.999939
 51
0.000109
  0
LINE
  5
C1
330
19
100
AcDbEntity
  8
2
  6
Continuous
 62
     7
100
AcDbLine
 10
36.56654
 20
23.541019
 30
0.0
 11
55.156235
 21
23.541019
 31
0.0
  0
ARC
  5
C2
330
19
100
AcDbEntity
  8
2
  6
Continuous
 62
     7
100
AcDbCircle
 10
55.15624200000001
 20
21.541027
 30
0.0
 40
1.999991999999999
100
AcDbArc
 50
14.999855
 51
90.00021399999999
  0
ARC
  5
C3
330
19
100
AcDbEntity
  8
2
  6
Continuous
 62
     7
100
AcDbCircle
 10
52.47675699999999
 20
31.541033
 30
0.0
 40
1.999986999999999
100
AcDbArc
 50
14.999725
 51
90.00032799999999
  0
LINE
  5
C4
330
19
100
AcDbEntity
  8
2
  6
Continuous
 62
     7
100
AcDbLine
 10
54.4086
 20
32.05865900000001
 30
0.0
 11
58.566544
 21
16.541019
 31
0.0
  0
LINE
  5
C5
330
19
100
AcDbEntity
  8
2
  6
Continuous
 62
     7
100
AcDbLine
 10
54.56654399999999
 20
5.541019
 30
0.0
 11
54.56654399999999
 21
-3.458980999999999
 31
0.0
  0
ARC
  5
C6
330
19
100
AcDbEntity
  8
2
  6
Continuous
 62
     7
100
AcDbCircle
 10
55.56654399999999
 20
-3.458983
 30
0.0
 40
0.9999969999999999
100
AcDbArc
 50
179.999832
 51
270.0
  0
LINE
  5
C7
330
19
100
AcDbEntity
  8
2
  6
Continuous
 62
     7
100
AcDbLine
 10
63.566544
 20
13.541019
 30
0.0
 11
63.566544
 21
-3.458980999999999
 31
0.0
  0
ARC
  5
C8
330
19
100
AcDbEntity
  8
2
  6
Continuous
 62
     7
100
AcDbCircle
 10
62.566547
 20
-3.458983999999999
 30
0.0
 40
0.9999959999999997
100
AcDbArc
 50
269.999786
 51
0.000205
  0
LINE
  5
C9
330
19
100
AcDbEntity
  8
2
  6
Continuous
 62
     7
100
AcDbLine
 10
62.56654399999999
 20
-4.458980999999999
 30
0.0
 11
55.56654399999999
 21
-4.458980999999999
 31
0.0
  0
ARC
  5
CA
330
19
100
AcDbEntity
  8
2
  6
Continuous
 62
     7
100
AcDbCircle
 10
-13.433468
 20
18.541023
 30
0.0
 40
0.9999959999999997
100
AcDbArc
 50
89.999786
 51
180.000214
  0
LINE
  5
CB
330
19
100
AcDbEntity
  8
2
  6
Continuous
 62
     7
100
AcDbLine
 10
23.566536
 20
24.541019
 30
0.0
 11
-13.433464
 21
24.541019
 31
0.0
  0
ARC
  5
CC
330
19
100
AcDbEntity
  8
2
  6
Continuous
 62
     7
100
AcDbCircle
 10
-13.433466
 20
23.541023
 30
0.0
 40
0.9999959999999997
100
AcDbArc
 50
89.99989300000001
 51
180.000214
  0
LINE
  5
CD
330
19
100
AcDbEntity
  8
2
  6
Continuous
 62
     7
100
AcDbLine
 10
-14.433464
 20
23.541019
 30
0.0
 11
-14.433464
 21
11.541019
 31
0.0
  0
ARC
  5
CE
330
19
100
AcDbEntity
  8
2
  6
Continuous
 62
     7
100
AcDbCircle
 10
33.566544
 20
32.541023
 30
0.0
 40
0.9999959999999997
100
AcDbArc
 50
359.999786
 51
90.00021399999999
  0
LINE
  5
CF
330
19
100
AcDbEntity
  8
2
  6
Continuous
 62
     7
100
AcDbLine
 10
33.56654000000001
 20
33.541019
 30
0.0
 11
26.566536
 21
33.541019
 31
0.0
  0
ARC
  5
D0
330
19
100
AcDbEntity
  8
2
  6
Continuous
 62
     7
100
AcDbCircle
 10
26.56653400000001
 20
32.541023
 30
0.0
 40
0.9999959999999997
100
AcDbArc
 50
89.99989300000001
 51
180.000214
  0
LINE
  5
D1
330
19
100
AcDbEntity
  8
2
  6
Continuous
 62
     7
100
AcDbLine
 10
-13.433464
 20
19.541019
 30
0.0
 11
24.566536
 21
19.541019
 31
0.0
  0
ARC
  5
D2
330
19
100
AcDbEntity
  8
2
  6
Continuous
 62
     7
100
AcDbCircle
 10
24.566538
 20
20.541019
 30
0.0
 40
0.9999979999999998
100
AcDbArc
 50
269.999908
 51
0.0
  0
LINE
  5
D3
330
19
100
AcDbEntity
  8
2
  6
Continuous
 62
     7
100
AcDbLine
 10
33.56654000000001
 20
33.541019
 30
0.0
 11
52.47674599999999
 21
33.541019
 31
0.0
  0
LINE
  5
D4
330
19
100
AcDbEntity
  8
2
  6
Continuous
 62
     7
100
AcDbLine
 10
25.566536
 20
32.541019
 30
0.0
 11
25.566536
 21
6.541019
 31
0.0
  0
ARC
  5
D5
330
19
100
AcDbEntity
  8
2
  6
Continuous
 62
     7
100
AcDbCircle
 10
26.56653400000001
 20
6.541017
 30
0.0
 40
0.9999969999999999
100
AcDbArc
 50
179.999832
 51
270.000122
  0
LINE
  5
D6
330
19
100
AcDbEntity
  8
2
  6
Continuous
 62
     7
100
AcDbLine
 10
34.56654
 20
32.541019
 30
0.0
 11
34.56654
 21
6.541019
 31
0.0
  0
ARC
  5
D7
330
19
100
AcDbEntity
  8
2
  6
Continuous
 62
     7
100
AcDbCircle
 10
33.566544
 20
6.541017
 30
0.0
 40
0.9999959999999997
100
AcDbArc
 50
269.999786
 51
0.000164
  0
LINE
  5
D8
330
19
100
AcDbEntity
  8
2
  6
Continuous
 62
     7
100
AcDbLine
 10
33.56654000000001
 20
5.541019
 30
0.0
 11
26.566536
 21
5.541019
 31
0.0
  0
LINE
  5
D9
330
19
100
AcDbEntity
  8
3
  6
BORDER
 62
     7
100
AcDbLine
 10
23.566536
 20
7.541019
 30
0.0
 11
23.566536
 21
27.541019
 31
0.0
  0
LINE
  5
DA
330
19
100
AcDbEntity
  8
3
  6
DASHDOT
 62
     7
100
AcDbLine
 10
-46.15251899999999
 20
35.91002299999999
 30
0.0
 11
-55.08151999999999
 21
2.586549999999999
 31
0.0
  0
LINE
  5
DB
330
19
100
AcDbEntity
  8
3
  6
BORDER
 62
     7
100
AcDbLine
 10
23.566536
 20
7.541019
 30
0.0
 11
-53.753975
 21
7.541019
 31
0.0
  0
LINE
  5
DC
330
19
100
AcDbEntity
  8
3
  6
BORDER
 62
     7
100
AcDbLine
 10
23.566536
 20
27.541019
 30
0.0
 11
-48.394989
 21
27.541019
 31
0.0
  0
TEXT
  5
DF
330
19
100
AcDbEntity
  8
3
  6
Continuous
 62
     7
100
AcDbText
 10
-93.00296000000001
 20
-23.479862
 30
0.0
 40
3.0
  1
OUTSIDE
 41
0.9
  7
ENGINEER
100
AcDbText
  0
LINE
  5
E1
330
19
100
AcDbEntity
  8
6
  6
DIVIDE
 62
     7
100
AcDbLine
 10
-32.433464
 20
-9.458980999999999
 30
0.0
 11
-32.433464
 21
-34.458981
 31
0.0
  0
LINE
  5
E2
330
19
100
AcDbEntity
  8
6
  6
DIVIDE
 62
     7
100
AcDbLine
 10
-32.433464
 20
-9.458980999999999
 30
0.0
 11
87.56653599999999
 21
-9.458980999999999
 31
0.0
  0
TEXT
  5
E4
330
19
100
AcDbEntity
  8
3
  6
Continuous
 62
     7
100
AcDbText
 10
-31.47024500000001
 20
-52.106956
 30
0.0
 40
3.0
  1
A: WINDLOCK AT NORMAL POSITION
 41
0.9
  7
ENGINEER
100
AcDbText
  0
LINE
  5
E5
330
19
100
AcDbEntity
  8
5
  6
Continuous
 62
     7
100
AcDbLine
 10
-32.433464
 20
-99.15290800000001
 30
0.0
 11
63.566544
 21
-99.15290800000001
 31
0.0
  0
ARC
  5
E6
330
19
100
AcDbEntity
  8
5
  6
Continuous
 62
     7
100
AcDbCircle
 10
63.566532
 20
-107.152916
 30
0.0
 40
8.000007999999999
100
AcDbArc
 50
0.000055
 51
89.999924
  0
LINE
  5
E7
330
19
100
AcDbEntity
  8
5
  6
Continuous
 62
     7
100
AcDbLine
 10
-32.433464
 20
-103.152908
 30
0.0
 11
63.566544
 21
-103.152908
 31
0.0
  0
ARC
  5
E8
330
19
100
AcDbEntity
  8
5
  6
Continuous
 62
     7
100
AcDbCircle
 10
63.56655100000001
 20
-107.152893
 30
0.0
 40
3.999984999999999
100
AcDbArc
 50
359.999786
 51
90.000107
  0
LINE
  5
E9
330
19
100
AcDbEntity
  8
5
  6
Continuous
 62
     7
100
AcDbLine
 10
71.56654399999999
 20
-107.152908
 30
0.0
 11
71.56654399999999
 21
-141.152908
 31
0.0
  0
ARC
  5
EA
330
19
100
AcDbEntity
  8
5
  6
Continuous
 62
     7
100
AcDbCircle
 10
63.566536
 20
-141.152908
 30
0.0
 40
8.000007999999999
100
AcDbArc
 50
270.000061
 51
0.0
  0
LINE
  5
EB
330
19
100
AcDbEntity
  8
5
  6
Continuous
 62
     7
100
AcDbLine
 10
67.56654399999999
 20
-107.152908
 30
0.0
 11
67.56654399999999
 21
-141.152908
 31
0.0
  0
ARC
  5
EC
330
19
100
AcDbEntity
  8
5
  6
Continuous
 62
     7
100
AcDbCircle
 10
63.56655500000001
 20
-141.152924
 30
0.0
 40
3.999988999999999
100
AcDbArc
 50
269.9998470000001
 51
0.000219
  0
LINE
  5
ED
330
19
100
AcDbEntity
  8
5
  6
Continuous
 62
     7
100
AcDbLine
 10
63.566544
 20
-149.152908
 30
0.0
 11
-25.43346399999999
 21
-149.152908
 31
0.0
  0
LINE
  5
EE
330
19
100
AcDbEntity
  8
5
  6
Continuous
 62
     7
100
AcDbLine
 10
63.566544
 20
-145.152908
 30
0.0
 11
-25.43346400000001
 21
-145.152908
 31
0.0
  0
LINE
  5
EF
330
19
100
AcDbEntity
  8
5
  6
Continuous
 62
     7
100
AcDbLine
 10
-32.433464
 20
-99.15290800000001
 30
0.0
 11
-32.433464
 21
-103.152908
 31
0.0
  0
LINE
  5
F0
330
19
100
AcDbEntity
  8
5
  6
Continuous
 62
     7
100
AcDbLine
 10
-32.433464
 20
-142.1529030000142
 30
0.0
 11
-32.433464
 21
-142.152908
 31
0.0
  0
LINE
  5
F2
330
19
100
AcDbEntity
  8
5
  6
Continuous
 62
     7
100
AcDbLine
 10
-22.433464
 20
-135.152908
 30
0.0
 11
17.566536
 21
-135.152908
 31
0.0
  0
LINE
  5
F3
330
19
100
AcDbEntity
  8
5
  6
Continuous
 62
     7
100
AcDbLine
 10
17.566536
 20
-135.152908
 30
0.0
 11
17.566536
 21
-139.1529030000142
 31
0.0
  0
LINE
  5
F5
330
19
100
AcDbEntity
  8
4
  6
DASHDOT
 62
     7
100
AcDbLine
 10
-40.528564
 20
-130.659668
 30
0.0
 11
-39.44458
 21
-118.26973
 31
0.0
  0
LINE
  5
F6
330
19
100
AcDbEntity
  8
4
  6
DASHDOT
 62
     7
100
AcDbLine
 10
-20.604668
 20
-132.402786
 30
0.0
 11
-19.520687
 21
-120.012848
 31
0.0
  0
LINE
  5
F7
330
19
100
AcDbEntity
  8
4
  6
PHANTOM
 62
     7
100
AcDbLine
 10
-49.50109099999999
 20
-118.479065
 30
0.0
 11
-9.653304999999999
 21
-121.965302
 31
0.0
  0
LINE
  5
F8
330
19
100
AcDbEntity
  8
4
  6
PHANTOM
 62
     7
100
AcDbLine
 10
23.308273
 20
-123.845245
 30
0.0
 11
-0.600395
 21
-121.75351
 31
0.0
  0
ARC
  5
F9
330
19
100
AcDbEntity
  8
4
  6
Continuous
 62
     7
100
AcDbCircle
 10
15.376218
 20
-134.193283
 30
0.0
 40
2.999984999999999
100
AcDbArc
 50
354.999817
 51
85.00036599999999
  0
ARC
  5
FA
330
19
100
AcDbEntity
  8
4
  6
Continuous
 62
     7
100
AcDbCircle
 10
-12.430112
 20
-130.756744
 30
0.0
 40
2.000013
100
AcDbArc
 50
355.000336
 51
84.999535
  0
LINE
  5
FB
330
19
100
AcDbEntity
  8
4
  6
Continuous
 62
     7
100
AcDbLine
 10
15.637665
 20
-131.204712
 30
0.0
 11
0.6947479999999999
 21
-129.897369
 31
0.0
  0
ARC
  5
FC
330
19
100
AcDbEntity
  8
4
  6
Continuous
 62
     7
100
AcDbCircle
 10
0.520423
 20
-131.88974
 30
0.0
 40
1.999981999999999
100
AcDbArc
 50
84.99955699999999
 51
175.000702
  0
LINE
  5
FD
330
19
100
AcDbEntity
  8
4
  6
Continuous
 62
     7
100
AcDbLine
 10
23.308273
 20
-123.845245
 30
0.0
 11
25.300667
 21
-124.019547
 31
0.0
  0
ARC
  5
FE
330
19
100
AcDbEntity
  8
4
  6
Continuous
 62
     7
100
AcDbCircle
 10
25.039202
 20
-127.008125
 30
0.0
 40
2.999995
100
AcDbArc
 50
354.9996950000001
 51
85.000031
  0
LINE
  5
FF
330
19
100
AcDbEntity
  8
4
  6
Continuous
 62
     7
100
AcDbLine
 10
-12.255783
 20
-128.764343
 30
0.0
 11
-47.12260399999999
 21
-125.713898
 31
0.0
  0
ARC
  5
100
330
19
100
AcDbEntity
  8
4
  6
Continuous
 62
     7
100
AcDbCircle
 10
-46.861107
 20
-122.725288
 30
0.0
 40
3.000027999999999
100
AcDbArc
 50
175.000336
 51
264.9994509999999
  0
ARC
  5
101
330
19
100
AcDbEntity
  8
4
  6
Continuous
 62
     7
100
AcDbCircle
 10
2.176393
 20
-112.962074
 30
0.0
 40
1.999989
100
AcDbArc
 50
174.999634
 51
265.000031
  0
ARC
  5
102
330
19
100
AcDbEntity
  8
4
  6
Continuous
 62
     7
100
AcDbCircle
 10
-10.686971
 20
-110.832848
 30
0.0
 40
1.999985999999999
100
AcDbArc
 50
264.999542
 51
355.000031
  0
LINE
  5
103
330
19
100
AcDbEntity
  8
4
  6
Continuous
 62
     7
100
AcDbLine
 10
2.002083
 20
-114.954453
 30
0.0
 11
20.521042
 21
-116.574646
 31
0.0
  0
ARC
  5
104
330
19
100
AcDbEntity
  8
4
  6
Continuous
 62
     7
100
AcDbCircle
 10
20.346672
 20
-118.567093
 30
0.0
 40
2.000061999999999
100
AcDbArc
 50
10.001257
 51
84.998482
  0
ARC
  5
105
330
19
100
AcDbEntity
  8
4
  6
Continuous
 62
     7
100
AcDbCircle
 10
18.548996
 20
-108.371544
 30
0.0
 40
1.999989
100
AcDbArc
 50
9.999622999999999
 51
85.00005300000001
  0
LINE
  5
106
330
19
100
AcDbEntity
  8
4
  6
Continuous
 62
     7
100
AcDbLine
 10
20.518608
 20
-108.024261
 30
0.0
 11
23.308273
 21
-123.845245
 31
0.0
  0
LINE
  5
107
330
19
100
AcDbEntity
  8
4
  6
Continuous
 62
     7
100
AcDbLine
 10
18.364784
 20
-134.454758
 30
0.0
 11
17.580383
 21
-143.420517
 31
0.0
  0
ARC
  5
108
330
19
100
AcDbEntity
  8
4
  6
Continuous
 62
     7
100
AcDbCircle
 10
18.576572
 20
-143.507675
 30
0.0
 40
0.9999909999999999
100
AcDbArc
 50
174.999832
 51
265.000031
  0
LINE
  5
109
330
19
100
AcDbEntity
  8
4
  6
Continuous
 62
     7
100
AcDbLine
 10
28.027779
 20
-127.269608
 30
0.0
 11
26.546135
 21
-144.20491
 31
0.0
  0
ARC
  5
10A
330
19
100
AcDbEntity
  8
4
  6
Continuous
 62
     7
100
AcDbCircle
 10
25.549942
 20
-144.117752
 30
0.0
 40
0.9999979999999998
100
AcDbArc
 50
264.999878
 51
354.9998470000001
  0
LINE
  5
10B
330
19
100
AcDbEntity
  8
4
  6
Continuous
 62
     7
100
AcDbLine
 10
25.462784
 20
-145.113953
 30
0.0
 11
18.489418
 21
-144.50386
 31
0.0
  0
ARC
  5
10C
330
19
100
AcDbEntity
  8
4
  6
Continuous
 62
     7
100
AcDbCircle
 10
-48.243439
 20
-115.577621
 30
0.0
 40
0.9999909999999999
100
AcDbArc
 50
84.999809
 51
175.000687
  0
LINE
  5
10D
330
19
100
AcDbEntity
  8
4
  6
Continuous
 62
     7
100
AcDbLine
 10
-10.861298
 20
-112.825226
 30
0.0
 11
-47.72049699999999
 21
-109.600464
 31
0.0
  0
ARC
  5
10E
330
19
100
AcDbEntity
  8
4
  6
Continuous
 62
     7
100
AcDbCircle
 10
-47.80763199999999
 20
-110.596687
 30
0.0
 40
1.000026999999999
100
AcDbArc
 50
85.001305
 51
174.998657
  0
LINE
  5
10F
330
19
100
AcDbEntity
  8
4
  6
Continuous
 62
     7
100
AcDbLine
 10
-48.80384799999999
 20
-110.509506
 30
0.0
 11
-49.849716
 21
-122.463837
 31
0.0
  0
ARC
  5
110
330
19
100
AcDbEntity
  8
4
  6
Continuous
 62
     7
100
AcDbCircle
 10
-0.202106
 20
-105.727242
 30
0.0
 40
1.000013999999999
100
AcDbArc
 50
355.000336
 51
84.999748
  0
LINE
  5
111
330
19
100
AcDbEntity
  8
4
  6
Continuous
 62
     7
100
AcDbLine
 10
-0.114944
 20
-104.731033
 30
0.0
 11
-7.088302999999999
 21
-104.120941
 31
0.0
  0
ARC
  5
112
330
19
100
AcDbEntity
  8
4
  6
Continuous
 62
     7
100
AcDbCircle
 10
-7.175444
 20
-105.117157
 30
0.0
 40
1.00002
100
AcDbArc
 50
85.00091600000001
 51
174.9991
  0
LINE
  5
113
330
19
100
AcDbEntity
  8
4
  6
Continuous
 62
     7
100
AcDbLine
 10
-48.156281
 20
-114.581436
 30
0.0
 11
-10.300873
 21
-117.893356
 31
0.0
  0
ARC
  5
114
330
19
100
AcDbEntity
  8
4
  6
Continuous
 62
     7
100
AcDbCircle
 10
-10.213739
 20
-116.897148
 30
0.0
 40
1.000016
100
AcDbArc
 50
265.001343
 51
354.9995120000001
  0
LINE
  5
115
330
19
100
AcDbEntity
  8
4
  6
Continuous
 62
     7
100
AcDbLine
 10
-0.114944
 20
-104.731033
 30
0.0
 11
18.723305
 21
-106.379166
 31
0.0
  0
LINE
  5
116
330
19
100
AcDbEntity
  8
4
  6
Continuous
 62
     7
100
AcDbLine
 10
-8.171661
 20
-105.029984
 30
0.0
 11
-10.437706
 21
-130.931046
 31
0.0
  0
ARC
  5
117
330
19
100
AcDbEntity
  8
4
  6
Continuous
 62
     7
100
AcDbCircle
 10
-9.441507000000001
 20
-131.018219
 30
0.0
 40
0.9999909999999999
100
AcDbArc
 50
174.999008
 51
264.999481
  0
LINE
  5
118
330
19
100
AcDbEntity
  8
4
  6
Continuous
 62
     7
100
AcDbLine
 10
0.794098
 20
-105.814392
 30
0.0
 11
-1.471954
 21
-131.715454
 31
0.0
  0
ARC
  5
119
330
19
100
AcDbEntity
  8
4
  6
Continuous
 62
     7
100
AcDbCircle
 10
-2.468147999999999
 20
-131.628296
 30
0.0
 40
0.999999
100
AcDbArc
 50
264.999847
 51
354.9998470000001
  0
LINE
  5
11A
330
19
100
AcDbEntity
  8
4
  6
Continuous
 62
     7
100
AcDbLine
 10
-2.555304999999999
 20
-132.624481
 30
0.0
 11
-9.528671000000001
 21
-132.014404
 31
0.0
  0
LINE
  5
11B
330
19
100
AcDbEntity
  8
4
  6
BORDER
 62
     7
100
AcDbLine
 10
-12.342941
 20
-129.760544
 30
0.0
 11
-10.599823
 21
-109.836639
 31
0.0
  0
LINE
  5
11C
330
19
100
AcDbEntity
  8
3
  6
DASHDOT
 62
     7
100
AcDbLine
 10
-80.088425
 20
-96.03369100000001
 30
0.0
 11
-89.037933
 21
-129.433716
 31
0.0
  0
LINE
  5
11D
330
19
100
AcDbEntity
  8
4
  6
BORDER
 62
     7
100
AcDbLine
 10
-10.599823
 20
-109.836639
 30
0.0
 11
-82.11052700000001
 21
-103.580276
 31
0.0
  0
LINE
  5
11E
330
19
100
AcDbEntity
  8
4
  6
BORDER
 62
     7
100
AcDbLine
 10
-12.342941
 20
-129.760544
 30
0.0
 11
-87.36676
 21
-123.196808
 31
0.0
  0
TEXT
  5
11F
330
19
100
AcDbEntity
  8
3
  6
Continuous
 62
     7
100
AcDbText
 10
-93.00296000000001
 20
-92.074341
 30
0.0
 40
3.0
  1
INSIDE
 41
0.9
  7
ENGINEER
100
AcDbText
  0
TEXT
  5
120
330
19
100
AcDbEntity
  8
3
  6
Continuous
 62
     7
100
AcDbText
 10
-93.00296000000001
 20
-159.382904
 30
0.0
 40
3.0
  1
OUTSIDE
 41
0.9
  7
ENGINEER
100
AcDbText
  0
LINE
  5
121
330
19
100
AcDbEntity
  8
7
  6
DIVIDE
 62
     7
100
AcDbLine
 10
-32.433464
 20
-149.152908
 30
0.0
 11
-32.433464
 21
-174.152908
 31
0.0
  0
LINE
  5
122
330
19
100
AcDbEntity
  8
7
  6
DIVIDE
 62
     7
100
AcDbLine
 10
-32.433464
 20
-149.152908
 30
0.0
 11
97.11250300000003
 21
-149.152908
 31
0.0
  0
TEXT
  5
124
330
19
100
AcDbEntity
  8
3
  6
Continuous
 62
     7
100
AcDbText
 10
-32.247517
 20
-191.904999
 30
0.0
 40
3.0
  1
B: WINDLOCK AT RATED WINDLOAD
 41
0.9
  7
ENGINEER
100
AcDbText
  0
TEXT
  5
127
330
19
100
AcDbEntity
  8
3
  6
Continuous
 62
     7
100
AcDbText
 10
-89.46599599999998
 20
39.869366
 30
0.0
 40
3.0
  1
INSIDE
 41
0.9
  7
ENGINEER
100
AcDbText
  0
LINE
  5
15C
330
19
100
AcDbEntity
  8
3
  6
DASHDOT
 62
     7
100
AcDbLine
 10
-32.433464
 20
-174.152908
 30
0.0
 11
97.112495
 21
-174.152908
 31
0.0
  0
LINE
  5
15D
330
19
100
AcDbEntity
  8
3
  6
DASHDOT
 62
     7
100
AcDbLine
 10
97.112495
 20
-174.152908
 30
0.0
 11
97.112495
 21
-149.152908
 31
0.0
  0
LINE
  5
15E
330
19
100
AcDbEntity
  8
3
  6
DASHDOT
 62
     7
100
AcDbLine
 10
97.112495
 20
-149.152908
 30
0.0
 11
-32.433464
 21
-149.152908
 31
0.0
  0
LINE
  5
15F
330
19
100
AcDbEntity
  8
3
  6
DASHDOT
 62
     7
100
AcDbLine
 10
-32.433464
 20
-149.152908
 30
0.0
 11
-32.433464
 21
-174.152908
 31
0.0
  0
LINE
  5
160
330
19
100
AcDbEntity
  8
3
  6
Continuous
 62
     7
100
AcDbLine
 10
94.84574899999998
 20
-174.152946
 30
0.0
 11
97.11247999999999
 21
-171.886166
 31
0.0
  0
LINE
  5
161
330
19
100
AcDbEntity
  8
3
  6
Continuous
 62
     7
100
AcDbLine
 10
80.703613
 20
-174.152942
 30
0.0
 11
97.112495
 21
-157.744049
 31
0.0
  0
LINE
  5
162
330
19
100
AcDbEntity
  8
3
  6
Continuous
 62
     7
100
AcDbLine
 10
66.56147800000001
 20
-174.152938
 30
0.0
 11
91.561485
 21
-149.152914
 31
0.0
  0
LINE
  5
163
330
19
100
AcDbEntity
  8
3
  6
Continuous
 62
     7
100
AcDbLine
 10
52.41934999999999
 20
-174.152934
 30
0.0
 11
77.41934999999999
 21
-149.152919
 31
0.0
  0
LINE
  5
164
330
19
100
AcDbEntity
  8
3
  6
Continuous
 62
     7
100
AcDbLine
 10
38.277214
 20
-174.152929
 30
0.0
 11
63.277222
 21
-149.152919
 31
0.0
  0
LINE
  5
165
330
19
100
AcDbEntity
  8
3
  6
Continuous
 62
     7
100
AcDbLine
 10
24.135075
 20
-174.152925
 30
0.0
 11
49.135086
 21
-149.152927
 31
0.0
  0
LINE
  5
166
330
19
100
AcDbEntity
  8
3
  6
Continuous
 62
     7
100
AcDbLine
 10
9.992942999999996
 20
-174.152921
 30
0.0
 11
34.99295000000001
 21
-149.152929
 31
0.0
  0
LINE
  5
167
330
19
100
AcDbEntity
  8
3
  6
Continuous
 62
     7
100
AcDbLine
 10
-4.149194999999998
 20
-174.152917
 30
0.0
 11
20.850807
 21
-149.152908
 31
0.0
  0
LINE
  5
168
330
19
100
AcDbEntity
  8
3
  6
Continuous
 62
     7
100
AcDbLine
 10
-18.291329
 20
-174.152912
 30
0.0
 11
6.708678999999996
 21
-149.152919
 31
0.0
  0
LINE
  5
169
330
19
100
AcDbEntity
  8
3
  6
Continuous
 62
     7
100
AcDbLine
 10
-32.433464
 20
-174.152908
 30
0.0
 11
-7.433464
 21
-149.152908
 31
0.0
  0
LINE
  5
16A
330
19
100
AcDbEntity
  8
3
  6
Continuous
 62
     7
100
AcDbLine
 10
-32.433465
 20
-160.010773
 30
0.0
 11
-21.5756
 21
-149.152906
 31
0.0
  0
LINE
  5
16B
330
19
100
AcDbEntity
  8
1
  6
Continuous
 62
     7
100
AcDbLine
 10
-22.433464
 20
-145.152908
 30
0.0
 11
17.566536
 21
-145.152908
 31
0.0
  0
LINE
  5
16D
330
19
100
AcDbEntity
  8
1
  6
Continuous
 62
     7
100
AcDbLine
 10
17.566536
 20
-135.152908
 30
0.0
 11
-22.433464
 21
-135.152908
 31
0.0
  0
LINE
  5
180
330
19
100
AcDbEntity
  8
3
  6
DASHDOT
 62
     7
100
AcDbLine
 10
-32.433464
 20
-34.458981
 30
0.0
 11
87.56653599999999
 21
-34.458981
 31
0.0
  0
LINE
  5
181
330
19
100
AcDbEntity
  8
3
  6
DASHDOT
 62
     7
100
AcDbLine
 10
87.56653599999999
 20
-34.458981
 30
0.0
 11
87.56653599999999
 21
-9.458981000000001
 31
0.0
  0
LINE
  5
182
330
19
100
AcDbEntity
  8
3
  6
DASHDOT
 62
     7
100
AcDbLine
 10
87.56653599999999
 20
-9.458981000000001
 30
0.0
 11
-32.433464
 21
-9.458981000000001
 31
0.0
  0
LINE
  5
183
330
19
100
AcDbEntity
  8
3
  6
DASHDOT
 62
     7
100
AcDbLine
 10
-32.433464
 20
-9.458981000000001
 30
0.0
 11
-32.433464
 21
-34.458981
 31
0.0
  0
LINE
  5
184
330
19
100
AcDbEntity
  8
3
  6
Continuous
 62
     7
100
AcDbLine
 10
80.703613
 20
-34.459015
 30
0.0
 11
87.56653599999999
 21
-27.596081
 31
0.0
  0
LINE
  5
185
330
19
100
AcDbEntity
  8
3
  6
Continuous
 62
     7
100
AcDbLine
 10
66.56147800000001
 20
-34.459011
 30
0.0
 11
87.566544
 21
-13.453915
 31
0.0
  0
LINE
  5
186
330
19
100
AcDbEntity
  8
3
  6
Continuous
 62
     7
100
AcDbLine
 10
52.41934999999999
 20
-34.459007
 30
0.0
 11
77.41934999999999
 21
-9.458991999999998
 31
0.0
  0
LINE
  5
187
330
19
100
AcDbEntity
  8
3
  6
Continuous
 62
     7
100
AcDbLine
 10
38.277214
 20
-34.459002
 30
0.0
 11
63.277222
 21
-9.458991999999998
 31
0.0
  0
LINE
  5
188
330
19
100
AcDbEntity
  8
3
  6
Continuous
 62
     7
100
AcDbLine
 10
24.135075
 20
-34.458998
 30
0.0
 11
49.135086
 21
-9.459000000000003
 31
0.0
  0
LINE
  5
189
330
19
100
AcDbEntity
  8
3
  6
Continuous
 62
     7
100
AcDbLine
 10
9.992942999999996
 20
-34.458994
 30
0.0
 11
34.99295000000001
 21
-9.459002000000001
 31
0.0
  0
LINE
  5
18A
330
19
100
AcDbEntity
  8
3
  6
Continuous
 62
     7
100
AcDbLine
 10
-4.149194999999998
 20
-34.45899
 30
0.0
 11
20.850811
 21
-9.458979000000002
 31
0.0
  0
LINE
  5
18B
330
19
100
AcDbEntity
  8
3
  6
Continuous
 62
     7
100
AcDbLine
 10
-18.291329
 20
-34.458985
 30
0.0
 11
6.708682999999993
 21
-9.458988999999998
 31
0.0
  0
LINE
  5
18C
330
19
100
AcDbEntity
  8
3
  6
Continuous
 62
     7
100
AcDbLine
 10
-32.433464
 20
-34.458981
 30
0.0
 11
-7.433462000000002
 21
-9.458977
 31
0.0
  0
LINE
  5
18D
330
19
100
AcDbEntity
  8
3
  6
Continuous
 62
     7
100
AcDbLine
 10
-32.433465
 20
-20.316846
 30
0.0
 11
-21.575596
 21
-9.458979000000002
 31
0.0
  0
LINE
  5
1B1
330
19
100
AcDbEntity
  8
5
  6
Continuous
 62
     7
100
AcDbLine
 10
17.56653568138563
 20
-135.1529030000142
 30
0.0
 11
-25.43346399999999
 21
-135.1529030000142
 31
0.0
  0
LINE
  5
1B2
330
19
100
AcDbEntity
  8
5
  6
Continuous
 62
     7
100
AcDbLine
 10
17.56653568138563
 20
-139.1529030000142
 30
0.0
 11
-25.433464
 21
-139.1529030000142
 31
0.0
  0
LINE
  5
1B3
330
19
100
AcDbEntity
  8
5
  6
Continuous
 62
     7
100
AcDbLine
 10
-28.433464
 20
-142.1529030000142
 30
0.0
 11
-28.43346400000001
 21
-142.152908
 31
0.0
  0
ARC
  5
1B4
330
19
100
AcDbEntity
  8
5
  6
Continuous
 62
     7
100
AcDbCircle
 10
-25.433464
 20
-142.1529030000142
 30
0.0
 40
3.0
100
AcDbArc
 50
90.0
 51
180.0
  0
ARC
  5
1B5
330
19
100
AcDbEntity
  8
5
  6
Continuous
 62
     7
100
AcDbCircle
 10
-25.43346400000001
 20
-142.152908
 30
0.0
 40
3.0
100
AcDbArc
 50
180.0
 51
270.0
  0
ARC
  5
1B6
330
19
100
AcDbEntity
  8
5
  6
Continuous
 62
     7
100
AcDbCircle
 10
-25.43346399999999
 20
-142.1529030000142
 30
0.0
 40
7.0
100
AcDbArc
 50
90.0
 51
180.0
  0
ARC
  5
1B7
330
19
100
AcDbEntity
  8
5
  6
Continuous
 62
     7
100
AcDbCircle
 10
-25.43346399999999
 20
-142.152908
 30
0.0
 40
7.0
100
AcDbArc
 50
179.9999999999999
 51
270.0
  0
ARC
  5
1B8
330
19
100
AcDbEntity
  8
5
  6
Continuous
 62
     7
100
AcDbCircle
 10
-25.43346525859909
 20
-2.45898099999772
 30
0.0
 40
7.0
100
AcDbArc
 50
179.9999999999999
 51
270.0
  0
ARC
  5
1B9
330
19
100
AcDbEntity
  8
5
  6
Continuous
 62
     7
100
AcDbCircle
 10
-25.43346525859909
 20
-2.458976000011972
 30
0.0
 40
7.0
100
AcDbArc
 50
90.0
 51
180.0
  0
ARC
  5
1BA
330
19
100
AcDbEntity
  8
5
  6
Continuous
 62
     7
100
AcDbCircle
 10
-25.43346525859911
 20
-2.458976000011944
 30
0.0
 40
3.0
100
AcDbArc
 50
90.0
 51
180.0
  0
LINE
  5
1BB
330
19
100
AcDbEntity
  8
5
  6
Continuous
 62
     7
100
AcDbLine
 10
-32.43346525859909
 20
-2.458976000011972
 30
0.0
 11
-32.43346525859909
 21
-2.45898099999772
 31
0.0
  0
ARC
  5
1BC
330
19
100
AcDbEntity
  8
5
  6
Continuous
 62
     7
100
AcDbCircle
 10
-25.43346525859911
 20
-2.45898099999772
 30
0.0
 40
3.0
100
AcDbArc
 50
180.0
 51
270.0
  0
LINE
  5
1BD
330
19
100
AcDbEntity
  8
5
  6
Continuous
 62
     7
100
AcDbLine
 10
-28.43346525859911
 20
-2.458976000011944
 30
0.0
 11
-28.43346525859911
 21
-2.45898099999772
 31
0.0
  0
LINE
  5
1BE
330
19
100
AcDbEntity
  8
5
  6
Continuous
 62
     7
100
AcDbLine
 10
17.56653442278652
 20
4.541023999988027
 30
0.0
 11
-25.43346525859909
 21
4.541023999988027
 31
0.0
  0
LINE
  5
1BF
330
19
100
AcDbEntity
  8
5
  6
Continuous
 62
     7
100
AcDbLine
 10
17.56653442278652
 20
0.5410239999880276
 30
0.0
 11
-25.43346525859911
 21
0.541023999988056
 31
0.0
  0
LINE
  5
1C0
330
19
100
AcDbEntity
  8
1
  6
Continuous
 62
     7
100
AcDbLine
 10
17.56653474140089
 20
4.541019000002279
 30
0.0
 11
-22.43346525859911
 21
4.541019000002279
 31
0.0
  0
LINE
  5
1C1
330
19
100
AcDbEntity
  8
5
  6
Continuous
 62
     7
100
AcDbLine
 10
-22.43346525859911
 20
4.541019000002279
 30
0.0
 11
17.56653474140089
 21
4.541019000002279
 31
0.0
  0
LINE
  5
1C2
330
19
100
AcDbEntity
  8
5
  6
Continuous
 62
     7
100
AcDbLine
 10
17.56653474140089
 20
4.541019000002279
 30
0.0
 11
17.56653474140089
 21
0.5410239999880276
 31
0.0
  0
LEADER
  5
1CE
330
19
100
AcDbEntity
  8
3
  6
Continuous
100
AcDbLeader
  3
STANDARD
 73
     0
 40
6.666666666666666
 41
39.16666666666666
 76
     3
 10
28.0277797214052
 20
-127.2696077014269
 30
0.0
 10
49.99645562255341
 20
-86.19044568271169
 30
0.0
 10
53.63873333691595
 20
-86.19044568271169
 30
0.0
340
1CF
213
0.0
223
-0.09
233
0.0
1001
ACAD
1000
DSTYLE
1002
{
1070
     3
1000
mm
1070
    41
1040
5.0
1070
    42
1040
2.0
1070
    44
1040
2.0
1070
   140
1040
2.5
1070
   176
1070
     7
1070
   177
1070
     7
1070
   178
1070
     7
1002
}
  0
MTEXT
  5
1CF
102
{ACAD_REACTORS
330
1CE
102
}
330
19
100
AcDbEntity
  8
3
  6
Continuous
 62
     7
100
AcDbMText
 10
53.72873333691595
 20
-86.10044568271169
 30
0.0
 40
2.5
 41
0.0
 71
     1
 72
     1
  1
WINDLOCK ENGAGES\PTO GUIDE CURL
 73
     1
 44
1.0
1001
ACAD
1000
MTEXTBEGIN
1070
    73
1070
     1
1070
    44
1040
1.0
1070
    74
1070
     0
1000
MTEXTEND
  0
LEADER
  5
1D0
330
19
100
AcDbEntity
  8
3
  6
Continuous
100
AcDbLeader
  3
STANDARD
 73
     0
 40
6.666666666666666
 41
44.99999999999999
 76
     3
 10
-53.80845973536065
 20
-104.5413514878205
 30
0.0
 10
-43.33691192979609
 20
-85.89020896239777
 30
0.0
 10
-40.14991855579228
 20
-85.89020896239777
 30
0.0
340
1D1
213
0.0
223
-1.25
233
0.0
1001
ACAD
1000
DSTYLE
1002
{
1070
   147
1040
0.09
1070
    77
1070
     0
1070
     3
1000
mm
1070
    41
1040
5.0
1070
    42
1040
2.0
1070
    44
1040
2.0
1070
   140
1040
2.5
1070
   176
1070
     7
1070
   177
1070
     7
1070
   178
1070
     7
1002
}
  0
MTEXT
  5
1D1
102
{ACAD_REACTORS
330
1D0
102
}
330
19
100
AcDbEntity
  8
3
  6
Continuous
 62
     7
100
AcDbMText
 10
-40.05991855579227
 20
-84.64020896239777
 30
0.0
 40
2.5
 41
0.0
 71
     1
 72
     1
  1
\A1;DOOR SLAT DEFLECTS\P(AT RATED WINDLOAD)
 73
     1
 44
1.0
1001
ACAD
1000
MTEXTBEGIN
1070
    73
1070
     1
1070
    44
1040
1.0
1070
    74
1070
     0
1000
MTEXTEND
  0
LEADER
  5
1D2
330
19
100
AcDbEntity
  8
3
  6
Continuous
100
AcDbLeader
  3
STANDARD
 73
     0
 74
     0
 75
     1
 40
2.5
 41
19.16666666666666
 76
     3
 10
56.37044237056125
 20
30.08349165333198
 30
0.0
 10
75.04524701533546
 20
44.18557521882712
 30
0.0
 10
80.04524701533545
 20
44.18557521882712
 30
0.0
340
1D3
213
0.0
223
-1.25
233
0.0
1001
ACAD
1000
DSTYLE
1002
{
1070
   147
1040
0.09
1070
    77
1070
     0
1070
     3
1000
mm
1070
    41
1040
5.0
1070
    42
1040
2.0
1070
    44
1040
2.0
1070
   140
1040
2.5
1070
   176
1070
     7
1070
   177
1070
     7
1070
   178
1070
     7
1002
}
  0
MTEXT
  5
1D3
102
{ACAD_REACTORS
330
1D2
102
}
330
19
100
AcDbEntity
  8
3
  6
Continuous
 62
     7
100
AcDbMText
 10
80.13524701533546
 20
45.43557521882712
 30
0.0
 40
2.5
 41
0.0
 71
     1
 72
     1
  1
\A1;WINDLOCK
 73
     1
 44
1.0
1001
ACAD
1000
MTEXTBEGIN
1070
    73
1070
     1
1070
    44
1040
1.0
1070
    74
1070
     0
1000
MTEXTEND
  0
LEADER
  5
1D4
330
19
100
AcDbEntity
  8
3
  6
Continuous
100
AcDbLeader
  3
STANDARD
 73
     0
 40
2.5
 41
23.33333333333333
 76
     2
 10
73.36535115926335
 20
15.99320762662
 30
0.0
 10
90.51679581806434
 20
15.98140865192226
 30
0.0
340
1D5
213
0.0
223
-1.25
233
0.0
1001
ACAD
1000
DSTYLE
1002
{
1070
   147
1040
0.09
1070
    77
1070
     0
1070
     3
1000
mm
1070
    41
1040
5.0
1070
    42
1040
2.0
1070
    44
1040
2.0
1070
   140
1040
2.5
1070
   176
1070
     7
1070
   177
1070
     7
1070
   178
1070
     7
1002
}
  0
MTEXT
  5
1D5
102
{ACAD_REACTORS
330
1D4
102
}
330
19
100
AcDbEntity
  8
3
  6
Continuous
 62
     7
100
AcDbMText
 10
90.60679581806434
 20
17.23140865192226
 30
0.0
 40
2.5
 41
0.0
 71
     1
 72
     1
  1
\A1;DOOR GUIDE
 73
     1
 44
1.0
1001
ACAD
1000
MTEXTBEGIN
1070
    73
1070
     1
1070
    44
1040
1.0
1070
    74
1070
     0
1000
MTEXTEND
  0
VIEWPORT
  5
1C6
102
{ACAD_XDICTIONARY
360
1FD
102
}
330
16
100
AcDbEntity
 67
     1
  8
0
  6
Continuous
100
AcDbViewport
 10
5.647917019100639
 20
3.865416556831419
 30
0.0
 40
15.46101455174907
 41
8.746133096049151
 68
     1
 69
     1
 12
5.647917019100639
 22
3.865416556831419
 13
0.0
 23
0.0
 14
10.0
 24
10.0
 15
10.0
 25
10.0
 16
0.0
 26
0.0
 36
1.0
 17
0.0
 27
0.0
 37
0.0
 42
50.0
 43
0.0
 44
0.0
 45
8.746133096049151
 50
0.0
 51
0.0
 72
   100
 90
    32800
  1

281
     0
 71
     1
 74
     0
110
0.0
120
0.0
130
0.0
111
1.0
121
0.0
131
0.0
112
0.0
122
1.0
132
0.0
 79
     0
146
0.0
  0
VIEWPORT
  5
1C8
102
{ACAD_XDICTIONARY
360
1FF
102
}
330
16
100
AcDbEntity
 67
     1
  8
3
  6
Continuous
100
AcDbViewport
 10
5.647083473956492
 20
3.865416538058303
 30
0.0
 40
9.035333558330385
 41
6.184666460893286
 68
     2
 69
     2
 12
20.58501421428569
 22
-74.5178165
 13
0.0
 23
0.0
 14
1.0
 24
1.0
 15
0.0
 25
0.0
 16
0.0
 26
0.0
 36
1.0
 17
0.0
 27
0.0
 37
0.0
 42
50.0
 43
0.0
 44
0.0
 45
238.6022079076087
 50
0.0
 51
0.0
 72
   100
 90
    32800
  1

281
     0
 71
     1
 74
     0
110
0.0
120
0.0
130
0.0
111
1.0
121
0.0
131
0.0
112
0.0
122
1.0
132
0.0
 79
     0
146
0.0
  0
ENDSEC
  0
SECTION
  2
OBJECTS
  0
DICTIONARY
  5
C
330
0
100
AcDbDictionary
281
     1
  3
ACAD_COLOR
350
1DA
  3
ACAD_GROUP
350
D
  3
ACAD_LAYOUT
350
12D
  3
ACAD_MATERIAL
350
1D9
  3
ACAD_MLINESTYLE
350
E
  3
ACAD_PLOTSETTINGS
350
12E
  3
ACAD_PLOTSTYLENAME
350
12B
  3
ACAD_TABLESTYLE
350
1DB
  3
AcadDim
350
1CD
  3
ACDBHEADERROUNDTRIPXREC
350
1F8
  3
AcDbVariableDictionary
350
1CB
  0
DICTIONARY
  5
1FD
330
1C6
100
AcDbDictionary
280
     1
281
     1
  3
ACAD_XREC_ROUNDTRIP
360
1FE
  0
DICTIONARY
  5
1FF
330
1C8
100
AcDbDictionary
280
     1
281
     1
  3
ACAD_XREC_ROUNDTRIP
360
200
  0
DICTIONARY
  5
1DA
102
{ACAD_REACTORS
330
C
102
}
330
C
100
AcDbDictionary
281
     1
  0
DICTIONARY
  5
D
102
{ACAD_REACTORS
330
C
102
}
330
C
100
AcDbDictionary
281
     1
  0
DICTIONARY
  5
12D
102
{ACAD_REACTORS
330
C
102
}
330
C
100
AcDbDictionary
281
     1
  3
Layout1
350
130
  3
Model
350
12F
  0
DICTIONARY
  5
1D9
102
{ACAD_REACTORS
330
C
102
}
330
C
100
AcDbDictionary
281
     1
  0
DICTIONARY
  5
E
102
{ACAD_REACTORS
330
C
102
}
330
C
100
AcDbDictionary
281
     1
  3
STANDARD
350
1C
  0
DICTIONARY
  5
12E
102
{ACAD_REACTORS
330
C
102
}
330
C
100
AcDbDictionary
281
     1
  0
ACDBDICTIONARYWDFLT
  5
12B
102
{ACAD_REACTORS
330
C
102
}
330
C
100
AcDbDictionary
281
     1
  3
Normal
350
12C
100
AcDbDictionaryWithDefault
340
12C
  0
DICTIONARY
  5
1DB
102
{ACAD_REACTORS
330
C
102
}
330
C
100
AcDbDictionary
281
     1
  3
Standard
350
1DC
  0
XRECORD
  5
1CD
102
{ACAD_REACTORS
330
C
102
}
330
C
100
AcDbXrecord
280
     1
 90
   990106
  3

 60
     0
 61
     0
 62
     1
 63
     3
 64
     0
 65
     0
 66
     0
 67
     3
 68
     1
 69
     0
 70
     0
 71
     0
 72
     0
 40
0.0
170
     0
340
1D5
  0
DICTIONARY
  5
1F8
102
{ACAD_REACTORS
330
C
102
}
330
C
100
AcDbDictionary
281
     1
  0
DICTIONARY
  5
1CB
102
{ACAD_REACTORS
330
C
102
}
330
C
100
AcDbDictionary
281
     1
  3
CTABLESTYLE
350
1E1
  3
DIMASSOC
350
1CC
  3
PROJECTNAME
350
1F6
  0
XRECORD
  5
1FE
102
{ACAD_REACTORS
330
1FD
102
}
330
1FD
100
AcDbXrecord
280
     1
102
SHADEPLOT
 70
     0
  0
XRECORD
  5
200
102
{ACAD_REACTORS
330
1FF
102
}
330
1FF
100
AcDbXrecord
280
     1
102
SHADEPLOT
 70
     0
  0
LAYOUT
  5
130
102
{ACAD_XDICTIONARY
360
1FB
102
}
102
{ACAD_REACTORS
330
12D
102
}
330
12D
100
AcDbPlotSettings
  1

  2
\\MIRAGE-NT1\HP 5N - Accts
  4
A4
  6

 40
6.805083274841308
 41
5.069413185119628
 42
6.805084228515625
 43
5.027069091796875
 44
209.9733276367187
 45
296.9683227539062
 46
0.0
 47
0.0
 48
0.0
 49
0.0
140
0.0
141
0.0
142
1.0
143
1.0
 70
   688
 72
     0
 73
     1
 74
     5
  7

 75
    16
147
1.0
148
0.0
149
0.0
100
AcDbLayout
  1
Layout1
 70
     1
 71
     1
 10
-0.1979161059762549
 20
-0.2679166643638311
 11
11.49375014417753
 21
7.99874977802667
 12
0.0
 22
0.0
 32
0.0
 14
1.129416694791299
 24
0.7730833076116604
 34
0.0
 15
10.16475025312168
 25
6.957749768504946
 35
0.0
146
0.0
 13
0.0
 23
0.0
 33
0.0
 16
1.0
 26
0.0
 36
0.0
 17
0.0
 27
1.0
 37
0.0
 76
     0
330
16
331
1C6
  0
LAYOUT
  5
12F
102
{ACAD_XDICTIONARY
360
1F9
102
}
102
{ACAD_REACTORS
330
12D
102
}
330
12D
100
AcDbPlotSettings
  1

  2
\\MIRAGE-NT1\HP 5N - Accts
  4

  6

 40
0.0
 41
0.0
 42
0.0
 43
0.0
 44
0.0
 45
0.0
 46
0.0
 47
0.0
 48
0.0
 49
0.0
140
0.0
141
0.0
142
1.0
143
1.0
 70
  1712
 72
     0
 73
     0
 74
     0
  7

 75
     0
147
1.0
148
0.0
149
0.0
100
AcDbLayout
  1
Model
 70
     1
 71
     0
 10
0.0
 20
0.0
 11
12.0
 21
9.0
 12
0.0
 22
0.0
 32
0.0
 14
0.0
 24
0.0
 34
0.0
 15
0.0
 25
0.0
 35
0.0
146
0.0
 13
0.0
 23
0.0
 33
0.0
 16
1.0
 26
0.0
 36
0.0
 17
0.0
 27
1.0
 37
0.0
 76
     0
330
19
  0
MLINESTYLE
  5
1C
102
{ACAD_REACTORS
330
E
102
}
330
E
100
AcDbMlineStyle
  2
STANDARD
 70
     0
  3

 62
     0
 51
90.0
 52
90.0
 71
     2
 49
0.5
 62
   256
  6
BYLAYER
 49
-0.5
 62
   256
  6
BYLAYER
  0
ACDBPLACEHOLDER
  5
12C
102
{ACAD_REACTORS
330
12B
102
}
330
12B
  0
TABLESTYLE
  5
1DC
102
{ACAD_REACTORS
330
1DB
102
}
330
1DB
100
AcDbTableStyle
  3
Standard
 70
     0
 71
     0
 40
0.06
 41
0.06
280
     0
281
     0
  7
STANDARD
140
0.18
170
     2
 62
     0
 63
     7
283
     0
274
    -2
284
     1
 64
     0
275
    -2
285
     1
 65
     0
276
    -2
286
     1
 66
     0
277
    -2
287
     1
 67
     0
278
    -2
288
     1
 68
     0
279
    -2
289
     1
 69
     0
  7
STANDARD
140
0.25
170
     5
 62
     0
 63
     7
283
     0
274
    -2
284
     1
 64
     0
275
    -2
285
     1
 65
     0
276
    -2
286
     1
 66
     0
277
    -2
287
     1
 67
     0
278
    -2
288
     1
 68
     0
279
    -2
289
     1
 69
     0
  7
STANDARD
140
0.18
170
     5
 62
     0
 63
     7
283
     0
274
    -2
284
     1
 64
     0
275
    -2
285
     1
 65
     0
276
    -2
286
     1
 66
     0
277
    -2
287
     1
 67
     0
278
    -2
288
     1
 68
     0
279
    -2
289
     1
 69
     0
  0
DICTIONARYVAR
  5
1E1
102
{ACAD_REACTORS
330
1CB
102
}
330
1CB
100
DictionaryVariables
280
     0
  1
STANDARD
  0
DICTIONARYVAR
  5
1CC
102
{ACAD_REACTORS
330
1CB
102
}
330
1CB
100
DictionaryVariables
280
     0
  1
1
  0
DICTIONARYVAR
  5
1F6
102
{ACAD_REACTORS
330
1CB
102
}
330
1CB
100
DictionaryVariables
280
     0
  1

  0
DICTIONARY
  5
1FB
330
130
100
AcDbDictionary
280
     1
281
     1
  3
ACAD_XREC_ROUNDTRIP
360
1FC
  0
DICTIONARY
  5
1F9
330
12F
100
AcDbDictionary
280
     1
281
     1
  3
ACAD_XREC_ROUNDTRIP
360
1FA
  0
XRECORD
  5
1FC
102
{ACAD_REACTORS
330
1FB
102
}
330
1FB
100
AcDbXrecord
280
     1
102
SHADEPLOT
 70
     0
102
SHADEPLOTRESLEVEL
 70
     2
102
SHADEPLOTCUSTOMDPI
 70
   300
  0
XRECORD
  5
1FA
102
{ACAD_REACTORS
330
1F9
102
}
330
1F9
100
AcDbXrecord
280
     1
102
SHADEPLOT
 70
     0
102
SHADEPLOTRESLEVEL
 70
     2
102
SHADEPLOTCUSTOMDPI
 70
   300
  0
ENDSEC
  0
EOF
